ISO-10303-21;
HEADER;
/* Generated by software containing ST-Developer
 * from STEP Tools, Inc. (www.steptools.com) 
 */

FILE_DESCRIPTION(
/* description */ (''),
/* implementation_level */ '2;1');

FILE_NAME(
/* name */ 'rullo.stp',
/* time_stamp */ '2025-05-21T12:13:49+02:00',
/* author */ ('R5800u'),
/* organization */ (''),
/* preprocessor_version */ 'ST-DEVELOPER v20',
/* originating_system */ 'Autodesk Inventor 2025',
/* authorisation */ '');

FILE_SCHEMA (('AUTOMOTIVE_DESIGN { 1 0 10303 214 3 1 1 }'));
ENDSEC;

DATA;
#10=MECHANICAL_DESIGN_GEOMETRIC_PRESENTATION_REPRESENTATION('',(#13),#390);
#11=SHAPE_REPRESENTATION_RELATIONSHIP('SRR','None',#397,#12);
#12=ADVANCED_BREP_SHAPE_REPRESENTATION('',(#14),#389);
#13=STYLED_ITEM('',(#406),#14);
#14=MANIFOLD_SOLID_BREP('Solido1',#190);
#15=(
BOUNDED_SURFACE()
B_SPLINE_SURFACE(2,2,((#351,#352,#353,#354,#355,#356,#357,#358,#359),(#360,
#361,#362,#363,#364,#365,#366,#367,#368),(#369,#370,#371,#372,#373,#374,
#375,#376,#377)),.UNSPECIFIED.,.F.,.T.,.F.)
B_SPLINE_SURFACE_WITH_KNOTS((3,3),(3,2,2,2,3),(-0.373316909342356,0.373316909342356),
(-3.14159265358979,-1.5707963267949,0.,1.5707963267949,3.14159265358979),
 .UNSPECIFIED.)
GEOMETRIC_REPRESENTATION_ITEM()
RATIONAL_B_SPLINE_SURFACE(((1.,0.707106781186548,1.,0.707106781186548,1.,
0.707106781186548,1.,0.707106781186548,1.),(0.931122773525148,0.658403227276858,
0.931122773525148,0.658403227276858,0.931122773525148,0.658403227276858,
0.931122773525148,0.658403227276858,0.931122773525148),(1.,0.707106781186548,
1.,0.707106781186548,1.,0.707106781186548,1.,0.707106781186548,1.)))
REPRESENTATION_ITEM('')
SURFACE()
);
#16=TOROIDAL_SURFACE('',#232,10.4872614497825,1.);
#17=TOROIDAL_SURFACE('',#239,10.4872614497825,1.);
#18=FACE_BOUND('',#46,.T.);
#19=FACE_BOUND('',#49,.T.);
#20=FACE_BOUND('',#53,.T.);
#21=FACE_BOUND('',#56,.T.);
#22=FACE_BOUND('',#60,.T.);
#23=FACE_BOUND('',#63,.T.);
#24=PLANE('',#216);
#25=PLANE('',#221);
#26=PLANE('',#227);
#27=PLANE('',#231);
#28=PLANE('',#238);
#29=PLANE('',#242);
#30=FACE_OUTER_BOUND('',#44,.T.);
#31=FACE_OUTER_BOUND('',#45,.T.);
#32=FACE_OUTER_BOUND('',#47,.T.);
#33=FACE_OUTER_BOUND('',#48,.T.);
#34=FACE_OUTER_BOUND('',#50,.T.);
#35=FACE_OUTER_BOUND('',#51,.T.);
#36=FACE_OUTER_BOUND('',#52,.T.);
#37=FACE_OUTER_BOUND('',#54,.T.);
#38=FACE_OUTER_BOUND('',#55,.T.);
#39=FACE_OUTER_BOUND('',#57,.T.);
#40=FACE_OUTER_BOUND('',#58,.T.);
#41=FACE_OUTER_BOUND('',#59,.T.);
#42=FACE_OUTER_BOUND('',#61,.T.);
#43=FACE_OUTER_BOUND('',#62,.T.);
#44=EDGE_LOOP('',(#127,#128,#129,#130));
#45=EDGE_LOOP('',(#131));
#46=EDGE_LOOP('',(#132));
#47=EDGE_LOOP('',(#133,#134,#135,#136));
#48=EDGE_LOOP('',(#137));
#49=EDGE_LOOP('',(#138));
#50=EDGE_LOOP('',(#139,#140,#141,#142));
#51=EDGE_LOOP('',(#143,#144,#145,#146));
#52=EDGE_LOOP('',(#147));
#53=EDGE_LOOP('',(#148));
#54=EDGE_LOOP('',(#149,#150,#151,#152));
#55=EDGE_LOOP('',(#153));
#56=EDGE_LOOP('',(#154));
#57=EDGE_LOOP('',(#155,#156,#157,#158));
#58=EDGE_LOOP('',(#159,#160,#161,#162));
#59=EDGE_LOOP('',(#163));
#60=EDGE_LOOP('',(#164));
#61=EDGE_LOOP('',(#165,#166,#167,#168));
#62=EDGE_LOOP('',(#169));
#63=EDGE_LOOP('',(#170));
#64=LINE('',#315,#69);
#65=LINE('',#324,#70);
#66=LINE('',#330,#71);
#67=LINE('',#335,#72);
#68=LINE('',#342,#73);
#69=VECTOR('',#249,4.5);
#70=VECTOR('',#260,6.53);
#71=VECTOR('',#269,2.5);
#72=VECTOR('',#274,4.5);
#73=VECTOR('',#283,6.53);
#74=CIRCLE('',#214,4.5);
#75=CIRCLE('',#215,4.5);
#76=CIRCLE('',#217,2.5);
#77=CIRCLE('',#219,6.53);
#78=CIRCLE('',#220,6.53);
#79=CIRCLE('',#223,2.5);
#80=CIRCLE('',#225,4.5);
#81=CIRCLE('',#226,4.5);
#82=CIRCLE('',#229,6.53);
#83=CIRCLE('',#230,6.53);
#84=CIRCLE('',#233,11.4183842233076);
#85=CIRCLE('',#234,1.);
#86=CIRCLE('',#235,10.4872614497825);
#87=CIRCLE('',#236,11.4183842233076);
#88=CIRCLE('',#237,52.);
#89=CIRCLE('',#240,10.4872614497825);
#90=CIRCLE('',#241,1.);
#91=VERTEX_POINT('',#312);
#92=VERTEX_POINT('',#314);
#93=VERTEX_POINT('',#318);
#94=VERTEX_POINT('',#321);
#95=VERTEX_POINT('',#323);
#96=VERTEX_POINT('',#328);
#97=VERTEX_POINT('',#332);
#98=VERTEX_POINT('',#334);
#99=VERTEX_POINT('',#339);
#100=VERTEX_POINT('',#341);
#101=VERTEX_POINT('',#346);
#102=VERTEX_POINT('',#348);
#103=VERTEX_POINT('',#378);
#104=VERTEX_POINT('',#383);
#105=EDGE_CURVE('',#91,#91,#74,.T.);
#106=EDGE_CURVE('',#91,#92,#64,.T.);
#107=EDGE_CURVE('',#92,#92,#75,.T.);
#108=EDGE_CURVE('',#93,#93,#76,.T.);
#109=EDGE_CURVE('',#94,#94,#77,.T.);
#110=EDGE_CURVE('',#94,#95,#65,.T.);
#111=EDGE_CURVE('',#95,#95,#78,.T.);
#112=EDGE_CURVE('',#96,#96,#79,.T.);
#113=EDGE_CURVE('',#96,#93,#66,.T.);
#114=EDGE_CURVE('',#97,#97,#80,.T.);
#115=EDGE_CURVE('',#97,#98,#67,.T.);
#116=EDGE_CURVE('',#98,#98,#81,.T.);
#117=EDGE_CURVE('',#99,#99,#82,.T.);
#118=EDGE_CURVE('',#99,#100,#68,.T.);
#119=EDGE_CURVE('',#100,#100,#83,.T.);
#120=EDGE_CURVE('',#101,#101,#84,.T.);
#121=EDGE_CURVE('',#101,#102,#85,.T.);
#122=EDGE_CURVE('',#102,#102,#86,.T.);
#123=EDGE_CURVE('',#103,#103,#87,.T.);
#124=EDGE_CURVE('',#103,#101,#88,.T.);
#125=EDGE_CURVE('',#104,#104,#89,.T.);
#126=EDGE_CURVE('',#104,#103,#90,.T.);
#127=ORIENTED_EDGE('',*,*,#105,.F.);
#128=ORIENTED_EDGE('',*,*,#106,.T.);
#129=ORIENTED_EDGE('',*,*,#107,.F.);
#130=ORIENTED_EDGE('',*,*,#106,.F.);
#131=ORIENTED_EDGE('',*,*,#107,.T.);
#132=ORIENTED_EDGE('',*,*,#108,.F.);
#133=ORIENTED_EDGE('',*,*,#109,.F.);
#134=ORIENTED_EDGE('',*,*,#110,.T.);
#135=ORIENTED_EDGE('',*,*,#111,.F.);
#136=ORIENTED_EDGE('',*,*,#110,.F.);
#137=ORIENTED_EDGE('',*,*,#111,.T.);
#138=ORIENTED_EDGE('',*,*,#105,.T.);
#139=ORIENTED_EDGE('',*,*,#112,.T.);
#140=ORIENTED_EDGE('',*,*,#113,.T.);
#141=ORIENTED_EDGE('',*,*,#108,.T.);
#142=ORIENTED_EDGE('',*,*,#113,.F.);
#143=ORIENTED_EDGE('',*,*,#114,.F.);
#144=ORIENTED_EDGE('',*,*,#115,.T.);
#145=ORIENTED_EDGE('',*,*,#116,.T.);
#146=ORIENTED_EDGE('',*,*,#115,.F.);
#147=ORIENTED_EDGE('',*,*,#116,.F.);
#148=ORIENTED_EDGE('',*,*,#112,.F.);
#149=ORIENTED_EDGE('',*,*,#117,.F.);
#150=ORIENTED_EDGE('',*,*,#118,.T.);
#151=ORIENTED_EDGE('',*,*,#119,.T.);
#152=ORIENTED_EDGE('',*,*,#118,.F.);
#153=ORIENTED_EDGE('',*,*,#119,.F.);
#154=ORIENTED_EDGE('',*,*,#114,.T.);
#155=ORIENTED_EDGE('',*,*,#120,.T.);
#156=ORIENTED_EDGE('',*,*,#121,.T.);
#157=ORIENTED_EDGE('',*,*,#122,.T.);
#158=ORIENTED_EDGE('',*,*,#121,.F.);
#159=ORIENTED_EDGE('',*,*,#123,.F.);
#160=ORIENTED_EDGE('',*,*,#124,.T.);
#161=ORIENTED_EDGE('',*,*,#120,.F.);
#162=ORIENTED_EDGE('',*,*,#124,.F.);
#163=ORIENTED_EDGE('',*,*,#122,.F.);
#164=ORIENTED_EDGE('',*,*,#117,.T.);
#165=ORIENTED_EDGE('',*,*,#125,.T.);
#166=ORIENTED_EDGE('',*,*,#126,.T.);
#167=ORIENTED_EDGE('',*,*,#123,.T.);
#168=ORIENTED_EDGE('',*,*,#126,.F.);
#169=ORIENTED_EDGE('',*,*,#125,.F.);
#170=ORIENTED_EDGE('',*,*,#109,.T.);
#171=CYLINDRICAL_SURFACE('',#213,4.5);
#172=CYLINDRICAL_SURFACE('',#218,6.53);
#173=CYLINDRICAL_SURFACE('',#222,2.5);
#174=CYLINDRICAL_SURFACE('',#224,4.5);
#175=CYLINDRICAL_SURFACE('',#228,6.53);
#176=ADVANCED_FACE('',(#30),#171,.F.);
#177=ADVANCED_FACE('',(#31,#18),#24,.F.);
#178=ADVANCED_FACE('',(#32),#172,.F.);
#179=ADVANCED_FACE('',(#33,#19),#25,.F.);
#180=ADVANCED_FACE('',(#34),#173,.F.);
#181=ADVANCED_FACE('',(#35),#174,.F.);
#182=ADVANCED_FACE('',(#36,#20),#26,.T.);
#183=ADVANCED_FACE('',(#37),#175,.F.);
#184=ADVANCED_FACE('',(#38,#21),#27,.T.);
#185=ADVANCED_FACE('',(#39),#16,.T.);
#186=ADVANCED_FACE('',(#40),#15,.F.);
#187=ADVANCED_FACE('',(#41,#22),#28,.T.);
#188=ADVANCED_FACE('',(#42),#17,.T.);
#189=ADVANCED_FACE('',(#43,#23),#29,.T.);
#190=CLOSED_SHELL('',(#176,#177,#178,#179,#180,#181,#182,#183,#184,#185,
#186,#187,#188,#189));
#191=DERIVED_UNIT_ELEMENT(#194,1.);
#192=DERIVED_UNIT_ELEMENT(#392,-3.);
#193=DIMENSIONAL_EXPONENTS(0.,1.,0.,0.,0.,0.,0.);
#194=(
CONVERSION_BASED_UNIT('gram',#196)
MASS_UNIT()
NAMED_UNIT(#193)
);
#195=(
MASS_UNIT()
NAMED_UNIT(*)
SI_UNIT(.KILO.,.GRAM.)
);
#196=MASS_MEASURE_WITH_UNIT(MASS_MEASURE(0.001),#195);
#197=DERIVED_UNIT((#191,#192));
#198=MEASURE_REPRESENTATION_ITEM('density measure',
POSITIVE_RATIO_MEASURE(1.13),#197);
#199=PROPERTY_DEFINITION_REPRESENTATION(#204,#201);
#200=PROPERTY_DEFINITION_REPRESENTATION(#205,#202);
#201=REPRESENTATION('material name',(#203),#389);
#202=REPRESENTATION('density',(#198),#389);
#203=DESCRIPTIVE_REPRESENTATION_ITEM('Nylon 6/6','Nylon 6/6');
#204=PROPERTY_DEFINITION('material property','material name',#399);
#205=PROPERTY_DEFINITION('material property','density of part',#399);
#206=DATE_TIME_ROLE('creation_date');
#207=APPLIED_DATE_AND_TIME_ASSIGNMENT(#208,#206,(#399));
#208=DATE_AND_TIME(#209,#210);
#209=CALENDAR_DATE(2025,19,5);
#210=LOCAL_TIME(0,0,0.,#211);
#211=COORDINATED_UNIVERSAL_TIME_OFFSET(0,0,.BEHIND.);
#212=AXIS2_PLACEMENT_3D('',#310,#243,#244);
#213=AXIS2_PLACEMENT_3D('',#311,#245,#246);
#214=AXIS2_PLACEMENT_3D('',#313,#247,#248);
#215=AXIS2_PLACEMENT_3D('',#316,#250,#251);
#216=AXIS2_PLACEMENT_3D('',#317,#252,#253);
#217=AXIS2_PLACEMENT_3D('',#319,#254,#255);
#218=AXIS2_PLACEMENT_3D('',#320,#256,#257);
#219=AXIS2_PLACEMENT_3D('',#322,#258,#259);
#220=AXIS2_PLACEMENT_3D('',#325,#261,#262);
#221=AXIS2_PLACEMENT_3D('',#326,#263,#264);
#222=AXIS2_PLACEMENT_3D('',#327,#265,#266);
#223=AXIS2_PLACEMENT_3D('',#329,#267,#268);
#224=AXIS2_PLACEMENT_3D('',#331,#270,#271);
#225=AXIS2_PLACEMENT_3D('',#333,#272,#273);
#226=AXIS2_PLACEMENT_3D('',#336,#275,#276);
#227=AXIS2_PLACEMENT_3D('',#337,#277,#278);
#228=AXIS2_PLACEMENT_3D('',#338,#279,#280);
#229=AXIS2_PLACEMENT_3D('',#340,#281,#282);
#230=AXIS2_PLACEMENT_3D('',#343,#284,#285);
#231=AXIS2_PLACEMENT_3D('',#344,#286,#287);
#232=AXIS2_PLACEMENT_3D('',#345,#288,#289);
#233=AXIS2_PLACEMENT_3D('',#347,#290,#291);
#234=AXIS2_PLACEMENT_3D('',#349,#292,#293);
#235=AXIS2_PLACEMENT_3D('',#350,#294,#295);
#236=AXIS2_PLACEMENT_3D('',#379,#296,#297);
#237=AXIS2_PLACEMENT_3D('',#380,#298,#299);
#238=AXIS2_PLACEMENT_3D('',#381,#300,#301);
#239=AXIS2_PLACEMENT_3D('',#382,#302,#303);
#240=AXIS2_PLACEMENT_3D('',#384,#304,#305);
#241=AXIS2_PLACEMENT_3D('',#385,#306,#307);
#242=AXIS2_PLACEMENT_3D('',#386,#308,#309);
#243=DIRECTION('axis',(0.,0.,1.));
#244=DIRECTION('refdir',(1.,0.,0.));
#245=DIRECTION('center_axis',(-1.,0.,0.));
#246=DIRECTION('ref_axis',(0.,0.,-1.));
#247=DIRECTION('center_axis',(1.,0.,0.));
#248=DIRECTION('ref_axis',(0.,0.,-1.));
#249=DIRECTION('',(1.,0.,0.));
#250=DIRECTION('center_axis',(-1.,0.,0.));
#251=DIRECTION('ref_axis',(0.,0.,-1.));
#252=DIRECTION('center_axis',(1.,0.,0.));
#253=DIRECTION('ref_axis',(0.,0.,-1.));
#254=DIRECTION('center_axis',(-1.,0.,0.));
#255=DIRECTION('ref_axis',(0.,0.,-1.));
#256=DIRECTION('center_axis',(-1.,0.,0.));
#257=DIRECTION('ref_axis',(0.,0.,-1.));
#258=DIRECTION('center_axis',(1.,0.,0.));
#259=DIRECTION('ref_axis',(0.,0.,-1.));
#260=DIRECTION('',(1.,0.,0.));
#261=DIRECTION('center_axis',(-1.,0.,0.));
#262=DIRECTION('ref_axis',(0.,0.,-1.));
#263=DIRECTION('center_axis',(1.,0.,0.));
#264=DIRECTION('ref_axis',(0.,0.,-1.));
#265=DIRECTION('center_axis',(1.,0.,0.));
#266=DIRECTION('ref_axis',(0.,0.,-1.));
#267=DIRECTION('center_axis',(1.,0.,0.));
#268=DIRECTION('ref_axis',(0.,0.,-1.));
#269=DIRECTION('',(-1.,0.,0.));
#270=DIRECTION('center_axis',(-1.,0.,0.));
#271=DIRECTION('ref_axis',(0.,0.,-1.));
#272=DIRECTION('center_axis',(-1.,0.,0.));
#273=DIRECTION('ref_axis',(0.,0.,-1.));
#274=DIRECTION('',(-1.,0.,0.));
#275=DIRECTION('center_axis',(-1.,0.,0.));
#276=DIRECTION('ref_axis',(0.,0.,-1.));
#277=DIRECTION('center_axis',(1.,0.,0.));
#278=DIRECTION('ref_axis',(0.,0.,-1.));
#279=DIRECTION('center_axis',(-1.,0.,0.));
#280=DIRECTION('ref_axis',(0.,0.,-1.));
#281=DIRECTION('center_axis',(-1.,0.,0.));
#282=DIRECTION('ref_axis',(0.,0.,-1.));
#283=DIRECTION('',(-1.,0.,0.));
#284=DIRECTION('center_axis',(-1.,0.,0.));
#285=DIRECTION('ref_axis',(0.,0.,-1.));
#286=DIRECTION('center_axis',(1.,0.,0.));
#287=DIRECTION('ref_axis',(0.,0.,-1.));
#288=DIRECTION('center_axis',(-1.,0.,0.));
#289=DIRECTION('ref_axis',(0.,0.,1.));
#290=DIRECTION('center_axis',(1.,0.,0.));
#291=DIRECTION('ref_axis',(0.,-1.,-1.83697019872103E-16));
#292=DIRECTION('center_axis',(0.,-1.,0.));
#293=DIRECTION('ref_axis',(0.,0.,-1.));
#294=DIRECTION('center_axis',(-1.,0.,0.));
#295=DIRECTION('ref_axis',(0.,-1.,-1.83697019872103E-16));
#296=DIRECTION('center_axis',(-1.,0.,0.));
#297=DIRECTION('ref_axis',(0.,-1.,-1.83697019872103E-16));
#298=DIRECTION('center_axis',(0.,-1.,0.));
#299=DIRECTION('ref_axis',(0.,0.,-1.));
#300=DIRECTION('center_axis',(1.,0.,0.));
#301=DIRECTION('ref_axis',(0.,0.,-1.));
#302=DIRECTION('center_axis',(-1.,0.,0.));
#303=DIRECTION('ref_axis',(0.,0.,1.));
#304=DIRECTION('center_axis',(1.,0.,0.));
#305=DIRECTION('ref_axis',(0.,-1.,-1.83697019872103E-16));
#306=DIRECTION('center_axis',(0.,-1.,0.));
#307=DIRECTION('ref_axis',(0.,0.,-1.));
#308=DIRECTION('center_axis',(-1.,0.,0.));
#309=DIRECTION('ref_axis',(0.,0.,1.));
#310=CARTESIAN_POINT('',(0.,0.,0.));
#311=CARTESIAN_POINT('Origin',(-14.8,37.,0.));
#312=CARTESIAN_POINT('',(-14.8,37.,4.5));
#313=CARTESIAN_POINT('Origin',(-14.8,37.,0.));
#314=CARTESIAN_POINT('',(-13.2,37.,4.5));
#315=CARTESIAN_POINT('',(-14.8,37.,4.5));
#316=CARTESIAN_POINT('Origin',(-13.2,37.,0.));
#317=CARTESIAN_POINT('Origin',(-13.2,37.,0.));
#318=CARTESIAN_POINT('',(-13.2,37.,2.5));
#319=CARTESIAN_POINT('Origin',(-13.2,37.,0.));
#320=CARTESIAN_POINT('Origin',(-19.6,37.,0.));
#321=CARTESIAN_POINT('',(-19.6,37.,6.53));
#322=CARTESIAN_POINT('Origin',(-19.6,37.,0.));
#323=CARTESIAN_POINT('',(-14.8,37.,6.53));
#324=CARTESIAN_POINT('',(-19.6,37.,6.53));
#325=CARTESIAN_POINT('Origin',(-14.8,37.,0.));
#326=CARTESIAN_POINT('Origin',(-14.8,37.,0.));
#327=CARTESIAN_POINT('Origin',(-38.1636563939645,37.,0.));
#328=CARTESIAN_POINT('',(13.2,37.,2.5));
#329=CARTESIAN_POINT('Origin',(13.2,37.,0.));
#330=CARTESIAN_POINT('',(-38.1636563939645,37.,2.5));
#331=CARTESIAN_POINT('Origin',(14.8,37.,0.));
#332=CARTESIAN_POINT('',(14.8,37.,4.5));
#333=CARTESIAN_POINT('Origin',(14.8,37.,0.));
#334=CARTESIAN_POINT('',(13.2,37.,4.5));
#335=CARTESIAN_POINT('',(14.8,37.,4.5));
#336=CARTESIAN_POINT('Origin',(13.2,37.,0.));
#337=CARTESIAN_POINT('Origin',(13.2,37.,0.));
#338=CARTESIAN_POINT('Origin',(19.6,37.,0.));
#339=CARTESIAN_POINT('',(19.6,37.,6.53));
#340=CARTESIAN_POINT('Origin',(19.6,37.,0.));
#341=CARTESIAN_POINT('',(14.8,37.,6.53));
#342=CARTESIAN_POINT('',(19.6,37.,6.53));
#343=CARTESIAN_POINT('Origin',(14.8,37.,0.));
#344=CARTESIAN_POINT('Origin',(14.8,37.,0.));
#345=CARTESIAN_POINT('Origin',(18.6,37.,0.));
#346=CARTESIAN_POINT('',(18.964705882353,37.,-11.4183842233076));
#347=CARTESIAN_POINT('Origin',(18.964705882353,37.,0.));
#348=CARTESIAN_POINT('',(19.6,37.,-10.4872614497825));
#349=CARTESIAN_POINT('Origin',(18.6,37.,-10.4872614497825));
#350=CARTESIAN_POINT('Origin',(19.6,37.,0.));
#351=CARTESIAN_POINT('Ctrl Pts',(18.964705882353,37.,-11.4183842233076));
#352=CARTESIAN_POINT('Ctrl Pts',(18.964705882353,25.5816157766924,-11.4183842233076));
#353=CARTESIAN_POINT('Ctrl Pts',(18.964705882353,25.5816157766924,0.));
#354=CARTESIAN_POINT('Ctrl Pts',(18.964705882353,25.5816157766924,11.4183842233076));
#355=CARTESIAN_POINT('Ctrl Pts',(18.964705882353,37.,11.4183842233076));
#356=CARTESIAN_POINT('Ctrl Pts',(18.964705882353,48.4183842233076,11.4183842233076));
#357=CARTESIAN_POINT('Ctrl Pts',(18.964705882353,48.4183842233076,0.));
#358=CARTESIAN_POINT('Ctrl Pts',(18.964705882353,48.4183842233076,-11.4183842233076));
#359=CARTESIAN_POINT('Ctrl Pts',(18.964705882353,37.,-11.4183842233076));
#360=CARTESIAN_POINT('Ctrl Pts',(3.33066907387547E-15,37.,-18.8465558769792));
#361=CARTESIAN_POINT('Ctrl Pts',(3.33066907387547E-15,18.1534441230208,
-18.8465558769792));
#362=CARTESIAN_POINT('Ctrl Pts',(3.33066907387547E-15,18.1534441230208,
0.));
#363=CARTESIAN_POINT('Ctrl Pts',(3.33066907387547E-15,18.1534441230208,
18.8465558769792));
#364=CARTESIAN_POINT('Ctrl Pts',(3.33066907387547E-15,37.,18.8465558769792));
#365=CARTESIAN_POINT('Ctrl Pts',(3.33066907387547E-15,55.8465558769792,
18.8465558769792));
#366=CARTESIAN_POINT('Ctrl Pts',(3.33066907387547E-15,55.8465558769792,
0.));
#367=CARTESIAN_POINT('Ctrl Pts',(3.33066907387547E-15,55.8465558769792,
-18.8465558769792));
#368=CARTESIAN_POINT('Ctrl Pts',(3.33066907387547E-15,37.,-18.8465558769792));
#369=CARTESIAN_POINT('Ctrl Pts',(-18.9647058823529,37.,-11.4183842233076));
#370=CARTESIAN_POINT('Ctrl Pts',(-18.9647058823529,25.5816157766924,-11.4183842233076));
#371=CARTESIAN_POINT('Ctrl Pts',(-18.9647058823529,25.5816157766924,0.));
#372=CARTESIAN_POINT('Ctrl Pts',(-18.9647058823529,25.5816157766924,11.4183842233076));
#373=CARTESIAN_POINT('Ctrl Pts',(-18.9647058823529,37.,11.4183842233076));
#374=CARTESIAN_POINT('Ctrl Pts',(-18.9647058823529,48.4183842233076,11.4183842233076));
#375=CARTESIAN_POINT('Ctrl Pts',(-18.9647058823529,48.4183842233076,0.));
#376=CARTESIAN_POINT('Ctrl Pts',(-18.9647058823529,48.4183842233076,-11.4183842233076));
#377=CARTESIAN_POINT('Ctrl Pts',(-18.9647058823529,37.,-11.4183842233076));
#378=CARTESIAN_POINT('',(-18.9647058823529,37.,-11.4183842233076));
#379=CARTESIAN_POINT('Origin',(-18.9647058823529,37.,0.));
#380=CARTESIAN_POINT('Origin',(0.,37.,37.));
#381=CARTESIAN_POINT('Origin',(19.6,48.1647173769347,0.));
#382=CARTESIAN_POINT('Origin',(-18.6,37.,0.));
#383=CARTESIAN_POINT('',(-19.6,37.,-10.4872614497825));
#384=CARTESIAN_POINT('Origin',(-19.6,37.,0.));
#385=CARTESIAN_POINT('Origin',(-18.6,37.,-10.4872614497825));
#386=CARTESIAN_POINT('Origin',(-19.6,37.,0.));
#387=UNCERTAINTY_MEASURE_WITH_UNIT(LENGTH_MEASURE(0.01),#391,
'DISTANCE_ACCURACY_VALUE',
'Maximum model space distance between geometric entities at asserted c
onnectivities');
#388=UNCERTAINTY_MEASURE_WITH_UNIT(LENGTH_MEASURE(0.01),#391,
'DISTANCE_ACCURACY_VALUE',
'Maximum model space distance between geometric entities at asserted c
onnectivities');
#389=(
GEOMETRIC_REPRESENTATION_CONTEXT(3)
GLOBAL_UNCERTAINTY_ASSIGNED_CONTEXT((#387))
GLOBAL_UNIT_ASSIGNED_CONTEXT((#391,#393,#394))
REPRESENTATION_CONTEXT('','3D')
);
#390=(
GEOMETRIC_REPRESENTATION_CONTEXT(3)
GLOBAL_UNCERTAINTY_ASSIGNED_CONTEXT((#388))
GLOBAL_UNIT_ASSIGNED_CONTEXT((#391,#393,#394))
REPRESENTATION_CONTEXT('','3D')
);
#391=(
LENGTH_UNIT()
NAMED_UNIT(*)
SI_UNIT(.MILLI.,.METRE.)
);
#392=(
LENGTH_UNIT()
NAMED_UNIT(*)
SI_UNIT(.CENTI.,.METRE.)
);
#393=(
NAMED_UNIT(*)
PLANE_ANGLE_UNIT()
SI_UNIT($,.RADIAN.)
);
#394=(
NAMED_UNIT(*)
SI_UNIT($,.STERADIAN.)
SOLID_ANGLE_UNIT()
);
#395=SHAPE_DEFINITION_REPRESENTATION(#396,#397);
#396=PRODUCT_DEFINITION_SHAPE('',$,#399);
#397=SHAPE_REPRESENTATION('',(#212),#389);
#398=PRODUCT_DEFINITION_CONTEXT('part definition',#403,'design');
#399=PRODUCT_DEFINITION('ruota','rullo',#400,#398);
#400=PRODUCT_DEFINITION_FORMATION('',$,#405);
#401=PRODUCT_RELATED_PRODUCT_CATEGORY('rullo','rullo',(#405));
#402=APPLICATION_PROTOCOL_DEFINITION('international standard',
'automotive_design',2009,#403);
#403=APPLICATION_CONTEXT(
'Core Data for Automotive Mechanical Design Process');
#404=PRODUCT_CONTEXT('part definition',#403,'mechanical');
#405=PRODUCT('ruota','rullo',$,(#404));
#406=PRESENTATION_STYLE_ASSIGNMENT((#407));
#407=SURFACE_STYLE_USAGE(.BOTH.,#410);
#408=SURFACE_STYLE_RENDERING_WITH_PROPERTIES($,#414,(#409));
#409=SURFACE_STYLE_TRANSPARENT(0.);
#410=SURFACE_SIDE_STYLE('',(#411,#408));
#411=SURFACE_STYLE_FILL_AREA(#412);
#412=FILL_AREA_STYLE('',(#413));
#413=FILL_AREA_STYLE_COLOUR('',#414);
#414=COLOUR_RGB('',1.,0.968627450980392,0.725490196078431);
ENDSEC;
END-ISO-10303-21;
