ISO-10303-21;
HEADER;
/* Generated by software containing ST-Developer
 * from STEP Tools, Inc. (www.steptools.com) 
 */

FILE_DESCRIPTION(
/* description */ (''),
/* implementation_level */ '2;1');

FILE_NAME(
/* name */ 'tappo_01.stp',
/* time_stamp */ '2025-06-13T08:02:41+02:00',
/* author */ ('R5800u'),
/* organization */ (''),
/* preprocessor_version */ 'ST-DEVELOPER v20',
/* originating_system */ 'Autodesk Inventor 2025',
/* authorisation */ '');

FILE_SCHEMA (('AUTOMOTIVE_DESIGN { 1 0 10303 214 3 1 1 }'));
ENDSEC;

DATA;
#10=MECHANICAL_DESIGN_GEOMETRIC_PRESENTATION_REPRESENTATION('',(#16),#593);
#11=GEOMETRICALLY_BOUNDED_WIREFRAME_SHAPE_REPRESENTATION('',(#12),#592);
#12=GEOMETRIC_CURVE_SET('Schizzo2',(#589));
#13=SHAPE_REPRESENTATION_RELATIONSHIP('SRR','None',#600,#15);
#14=SHAPE_REPRESENTATION_RELATIONSHIP('SRR','None',#600,#11);
#15=ADVANCED_BREP_SHAPE_REPRESENTATION('',(#17),#592);
#16=STYLED_ITEM('',(#609),#17);
#17=MANIFOLD_SOLID_BREP('Solido1',#348);
#18=CONICAL_SURFACE('',#395,7.5,0.785398163397449);
#19=FACE_BOUND('',#65,.T.);
#20=FACE_BOUND('',#66,.T.);
#21=FACE_BOUND('',#67,.T.);
#22=FACE_BOUND('',#68,.T.);
#23=FACE_BOUND('',#69,.T.);
#24=FACE_BOUND('',#78,.T.);
#25=FACE_BOUND('',#79,.T.);
#26=FACE_BOUND('',#80,.T.);
#27=FACE_BOUND('',#81,.T.);
#28=FACE_BOUND('',#82,.T.);
#29=FACE_BOUND('',#86,.T.);
#30=PLANE('',#383);
#31=PLANE('',#384);
#32=PLANE('',#386);
#33=PLANE('',#387);
#34=PLANE('',#388);
#35=PLANE('',#389);
#36=PLANE('',#390);
#37=PLANE('',#391);
#38=PLANE('',#392);
#39=PLANE('',#393);
#40=PLANE('',#399);
#41=FACE_OUTER_BOUND('',#59,.T.);
#42=FACE_OUTER_BOUND('',#60,.T.);
#43=FACE_OUTER_BOUND('',#61,.T.);
#44=FACE_OUTER_BOUND('',#62,.T.);
#45=FACE_OUTER_BOUND('',#63,.T.);
#46=FACE_OUTER_BOUND('',#64,.T.);
#47=FACE_OUTER_BOUND('',#70,.T.);
#48=FACE_OUTER_BOUND('',#71,.T.);
#49=FACE_OUTER_BOUND('',#72,.T.);
#50=FACE_OUTER_BOUND('',#73,.T.);
#51=FACE_OUTER_BOUND('',#74,.T.);
#52=FACE_OUTER_BOUND('',#75,.T.);
#53=FACE_OUTER_BOUND('',#76,.T.);
#54=FACE_OUTER_BOUND('',#77,.T.);
#55=FACE_OUTER_BOUND('',#83,.T.);
#56=FACE_OUTER_BOUND('',#84,.T.);
#57=FACE_OUTER_BOUND('',#85,.T.);
#58=FACE_OUTER_BOUND('',#87,.T.);
#59=EDGE_LOOP('',(#236,#237,#238,#239));
#60=EDGE_LOOP('',(#240,#241,#242,#243));
#61=EDGE_LOOP('',(#244,#245,#246,#247));
#62=EDGE_LOOP('',(#248,#249,#250,#251));
#63=EDGE_LOOP('',(#252,#253,#254,#255));
#64=EDGE_LOOP('',(#256,#257,#258,#259,#260,#261,#262,#263));
#65=EDGE_LOOP('',(#264));
#66=EDGE_LOOP('',(#265));
#67=EDGE_LOOP('',(#266));
#68=EDGE_LOOP('',(#267));
#69=EDGE_LOOP('',(#268));
#70=EDGE_LOOP('',(#269,#270,#271,#272));
#71=EDGE_LOOP('',(#273,#274,#275,#276));
#72=EDGE_LOOP('',(#277,#278,#279,#280));
#73=EDGE_LOOP('',(#281,#282,#283,#284));
#74=EDGE_LOOP('',(#285,#286,#287,#288));
#75=EDGE_LOOP('',(#289,#290,#291,#292));
#76=EDGE_LOOP('',(#293,#294,#295,#296));
#77=EDGE_LOOP('',(#297,#298,#299,#300,#301,#302,#303,#304));
#78=EDGE_LOOP('',(#305));
#79=EDGE_LOOP('',(#306));
#80=EDGE_LOOP('',(#307));
#81=EDGE_LOOP('',(#308));
#82=EDGE_LOOP('',(#309));
#83=EDGE_LOOP('',(#310,#311,#312,#313));
#84=EDGE_LOOP('',(#314,#315,#316,#317));
#85=EDGE_LOOP('',(#318));
#86=EDGE_LOOP('',(#319));
#87=EDGE_LOOP('',(#320,#321,#322,#323));
#88=LINE('',#502,#119);
#89=LINE('',#508,#120);
#90=LINE('',#514,#121);
#91=LINE('',#520,#122);
#92=LINE('',#525,#123);
#93=LINE('',#527,#124);
#94=LINE('',#529,#125);
#95=LINE('',#530,#126);
#96=LINE('',#533,#127);
#97=LINE('',#535,#128);
#98=LINE('',#537,#129);
#99=LINE('',#539,#130);
#100=LINE('',#541,#131);
#101=LINE('',#543,#132);
#102=LINE('',#544,#133);
#103=LINE('',#549,#134);
#104=LINE('',#550,#135);
#105=LINE('',#553,#136);
#106=LINE('',#554,#137);
#107=LINE('',#558,#138);
#108=LINE('',#559,#139);
#109=LINE('',#560,#140);
#110=LINE('',#563,#141);
#111=LINE('',#564,#142);
#112=LINE('',#567,#143);
#113=LINE('',#568,#144);
#114=LINE('',#570,#145);
#115=LINE('',#572,#146);
#116=LINE('',#580,#147);
#117=LINE('',#583,#148);
#118=LINE('',#588,#149);
#119=VECTOR('',#408,1.35);
#120=VECTOR('',#415,1.35);
#121=VECTOR('',#422,1.35);
#122=VECTOR('',#429,1.35);
#123=VECTOR('',#434,10.);
#124=VECTOR('',#435,10.);
#125=VECTOR('',#436,10.);
#126=VECTOR('',#437,10.);
#127=VECTOR('',#440,10.);
#128=VECTOR('',#441,10.);
#129=VECTOR('',#442,10.);
#130=VECTOR('',#443,10.);
#131=VECTOR('',#444,10.);
#132=VECTOR('',#445,10.);
#133=VECTOR('',#446,10.);
#134=VECTOR('',#451,10.);
#135=VECTOR('',#452,10.);
#136=VECTOR('',#455,10.);
#137=VECTOR('',#456,10.);
#138=VECTOR('',#459,10.);
#139=VECTOR('',#460,10.);
#140=VECTOR('',#461,10.);
#141=VECTOR('',#464,10.);
#142=VECTOR('',#465,10.);
#143=VECTOR('',#468,10.);
#144=VECTOR('',#469,10.);
#145=VECTOR('',#472,10.);
#146=VECTOR('',#475,10.);
#147=VECTOR('',#484,7.5);
#148=VECTOR('',#489,8.5);
#149=VECTOR('',#496,5.);
#150=CIRCLE('',#372,1.35);
#151=CIRCLE('',#373,1.35);
#152=CIRCLE('',#375,1.35);
#153=CIRCLE('',#376,1.35);
#154=CIRCLE('',#378,1.35);
#155=CIRCLE('',#379,1.35);
#156=CIRCLE('',#381,1.35);
#157=CIRCLE('',#382,1.35);
#158=CIRCLE('',#385,8.5);
#159=CIRCLE('',#394,5.);
#160=CIRCLE('',#396,6.5);
#161=CIRCLE('',#397,8.5);
#162=CIRCLE('',#400,5.);
#163=VERTEX_POINT('',#499);
#164=VERTEX_POINT('',#501);
#165=VERTEX_POINT('',#505);
#166=VERTEX_POINT('',#507);
#167=VERTEX_POINT('',#511);
#168=VERTEX_POINT('',#513);
#169=VERTEX_POINT('',#517);
#170=VERTEX_POINT('',#519);
#171=VERTEX_POINT('',#523);
#172=VERTEX_POINT('',#524);
#173=VERTEX_POINT('',#526);
#174=VERTEX_POINT('',#528);
#175=VERTEX_POINT('',#532);
#176=VERTEX_POINT('',#534);
#177=VERTEX_POINT('',#536);
#178=VERTEX_POINT('',#538);
#179=VERTEX_POINT('',#540);
#180=VERTEX_POINT('',#542);
#181=VERTEX_POINT('',#545);
#182=VERTEX_POINT('',#548);
#183=VERTEX_POINT('',#552);
#184=VERTEX_POINT('',#556);
#185=VERTEX_POINT('',#557);
#186=VERTEX_POINT('',#562);
#187=VERTEX_POINT('',#566);
#188=VERTEX_POINT('',#574);
#189=VERTEX_POINT('',#577);
#190=VERTEX_POINT('',#579);
#191=VERTEX_POINT('',#585);
#192=EDGE_CURVE('',#163,#163,#150,.T.);
#193=EDGE_CURVE('',#163,#164,#88,.T.);
#194=EDGE_CURVE('',#164,#164,#151,.T.);
#195=EDGE_CURVE('',#165,#165,#152,.T.);
#196=EDGE_CURVE('',#165,#166,#89,.T.);
#197=EDGE_CURVE('',#166,#166,#153,.T.);
#198=EDGE_CURVE('',#167,#167,#154,.T.);
#199=EDGE_CURVE('',#167,#168,#90,.T.);
#200=EDGE_CURVE('',#168,#168,#155,.T.);
#201=EDGE_CURVE('',#169,#169,#156,.T.);
#202=EDGE_CURVE('',#169,#170,#91,.T.);
#203=EDGE_CURVE('',#170,#170,#157,.T.);
#204=EDGE_CURVE('',#171,#172,#92,.T.);
#205=EDGE_CURVE('',#172,#173,#93,.T.);
#206=EDGE_CURVE('',#173,#174,#94,.T.);
#207=EDGE_CURVE('',#174,#171,#95,.T.);
#208=EDGE_CURVE('',#175,#173,#96,.T.);
#209=EDGE_CURVE('',#176,#175,#97,.T.);
#210=EDGE_CURVE('',#177,#176,#98,.T.);
#211=EDGE_CURVE('',#178,#177,#99,.T.);
#212=EDGE_CURVE('',#179,#178,#100,.T.);
#213=EDGE_CURVE('',#180,#179,#101,.T.);
#214=EDGE_CURVE('',#174,#180,#102,.T.);
#215=EDGE_CURVE('',#181,#181,#158,.T.);
#216=EDGE_CURVE('',#182,#172,#103,.T.);
#217=EDGE_CURVE('',#175,#182,#104,.T.);
#218=EDGE_CURVE('',#182,#183,#105,.T.);
#219=EDGE_CURVE('',#183,#176,#106,.T.);
#220=EDGE_CURVE('',#184,#185,#107,.T.);
#221=EDGE_CURVE('',#185,#178,#108,.T.);
#222=EDGE_CURVE('',#177,#184,#109,.T.);
#223=EDGE_CURVE('',#186,#185,#110,.T.);
#224=EDGE_CURVE('',#179,#186,#111,.T.);
#225=EDGE_CURVE('',#186,#187,#112,.T.);
#226=EDGE_CURVE('',#187,#180,#113,.T.);
#227=EDGE_CURVE('',#171,#187,#114,.T.);
#228=EDGE_CURVE('',#184,#183,#115,.T.);
#229=EDGE_CURVE('',#188,#188,#159,.T.);
#230=EDGE_CURVE('',#189,#189,#160,.T.);
#231=EDGE_CURVE('',#189,#190,#116,.T.);
#232=EDGE_CURVE('',#190,#190,#161,.T.);
#233=EDGE_CURVE('',#190,#181,#117,.T.);
#234=EDGE_CURVE('',#191,#191,#162,.T.);
#235=EDGE_CURVE('',#191,#188,#118,.T.);
#236=ORIENTED_EDGE('',*,*,#192,.F.);
#237=ORIENTED_EDGE('',*,*,#193,.T.);
#238=ORIENTED_EDGE('',*,*,#194,.F.);
#239=ORIENTED_EDGE('',*,*,#193,.F.);
#240=ORIENTED_EDGE('',*,*,#195,.F.);
#241=ORIENTED_EDGE('',*,*,#196,.T.);
#242=ORIENTED_EDGE('',*,*,#197,.F.);
#243=ORIENTED_EDGE('',*,*,#196,.F.);
#244=ORIENTED_EDGE('',*,*,#198,.F.);
#245=ORIENTED_EDGE('',*,*,#199,.T.);
#246=ORIENTED_EDGE('',*,*,#200,.F.);
#247=ORIENTED_EDGE('',*,*,#199,.F.);
#248=ORIENTED_EDGE('',*,*,#201,.F.);
#249=ORIENTED_EDGE('',*,*,#202,.T.);
#250=ORIENTED_EDGE('',*,*,#203,.F.);
#251=ORIENTED_EDGE('',*,*,#202,.F.);
#252=ORIENTED_EDGE('',*,*,#204,.T.);
#253=ORIENTED_EDGE('',*,*,#205,.T.);
#254=ORIENTED_EDGE('',*,*,#206,.T.);
#255=ORIENTED_EDGE('',*,*,#207,.T.);
#256=ORIENTED_EDGE('',*,*,#206,.F.);
#257=ORIENTED_EDGE('',*,*,#208,.F.);
#258=ORIENTED_EDGE('',*,*,#209,.F.);
#259=ORIENTED_EDGE('',*,*,#210,.F.);
#260=ORIENTED_EDGE('',*,*,#211,.F.);
#261=ORIENTED_EDGE('',*,*,#212,.F.);
#262=ORIENTED_EDGE('',*,*,#213,.F.);
#263=ORIENTED_EDGE('',*,*,#214,.F.);
#264=ORIENTED_EDGE('',*,*,#194,.T.);
#265=ORIENTED_EDGE('',*,*,#197,.T.);
#266=ORIENTED_EDGE('',*,*,#200,.T.);
#267=ORIENTED_EDGE('',*,*,#203,.T.);
#268=ORIENTED_EDGE('',*,*,#215,.T.);
#269=ORIENTED_EDGE('',*,*,#205,.F.);
#270=ORIENTED_EDGE('',*,*,#216,.F.);
#271=ORIENTED_EDGE('',*,*,#217,.F.);
#272=ORIENTED_EDGE('',*,*,#208,.T.);
#273=ORIENTED_EDGE('',*,*,#218,.T.);
#274=ORIENTED_EDGE('',*,*,#219,.T.);
#275=ORIENTED_EDGE('',*,*,#209,.T.);
#276=ORIENTED_EDGE('',*,*,#217,.T.);
#277=ORIENTED_EDGE('',*,*,#220,.T.);
#278=ORIENTED_EDGE('',*,*,#221,.T.);
#279=ORIENTED_EDGE('',*,*,#211,.T.);
#280=ORIENTED_EDGE('',*,*,#222,.T.);
#281=ORIENTED_EDGE('',*,*,#221,.F.);
#282=ORIENTED_EDGE('',*,*,#223,.F.);
#283=ORIENTED_EDGE('',*,*,#224,.F.);
#284=ORIENTED_EDGE('',*,*,#212,.T.);
#285=ORIENTED_EDGE('',*,*,#225,.T.);
#286=ORIENTED_EDGE('',*,*,#226,.T.);
#287=ORIENTED_EDGE('',*,*,#213,.T.);
#288=ORIENTED_EDGE('',*,*,#224,.T.);
#289=ORIENTED_EDGE('',*,*,#207,.F.);
#290=ORIENTED_EDGE('',*,*,#214,.T.);
#291=ORIENTED_EDGE('',*,*,#226,.F.);
#292=ORIENTED_EDGE('',*,*,#227,.F.);
#293=ORIENTED_EDGE('',*,*,#219,.F.);
#294=ORIENTED_EDGE('',*,*,#228,.F.);
#295=ORIENTED_EDGE('',*,*,#222,.F.);
#296=ORIENTED_EDGE('',*,*,#210,.T.);
#297=ORIENTED_EDGE('',*,*,#204,.F.);
#298=ORIENTED_EDGE('',*,*,#227,.T.);
#299=ORIENTED_EDGE('',*,*,#225,.F.);
#300=ORIENTED_EDGE('',*,*,#223,.T.);
#301=ORIENTED_EDGE('',*,*,#220,.F.);
#302=ORIENTED_EDGE('',*,*,#228,.T.);
#303=ORIENTED_EDGE('',*,*,#218,.F.);
#304=ORIENTED_EDGE('',*,*,#216,.T.);
#305=ORIENTED_EDGE('',*,*,#192,.T.);
#306=ORIENTED_EDGE('',*,*,#195,.T.);
#307=ORIENTED_EDGE('',*,*,#198,.T.);
#308=ORIENTED_EDGE('',*,*,#201,.T.);
#309=ORIENTED_EDGE('',*,*,#229,.T.);
#310=ORIENTED_EDGE('',*,*,#230,.T.);
#311=ORIENTED_EDGE('',*,*,#231,.T.);
#312=ORIENTED_EDGE('',*,*,#232,.T.);
#313=ORIENTED_EDGE('',*,*,#231,.F.);
#314=ORIENTED_EDGE('',*,*,#232,.F.);
#315=ORIENTED_EDGE('',*,*,#233,.T.);
#316=ORIENTED_EDGE('',*,*,#215,.F.);
#317=ORIENTED_EDGE('',*,*,#233,.F.);
#318=ORIENTED_EDGE('',*,*,#230,.F.);
#319=ORIENTED_EDGE('',*,*,#234,.T.);
#320=ORIENTED_EDGE('',*,*,#234,.F.);
#321=ORIENTED_EDGE('',*,*,#235,.T.);
#322=ORIENTED_EDGE('',*,*,#229,.F.);
#323=ORIENTED_EDGE('',*,*,#235,.F.);
#324=CYLINDRICAL_SURFACE('',#371,1.35);
#325=CYLINDRICAL_SURFACE('',#374,1.35);
#326=CYLINDRICAL_SURFACE('',#377,1.35);
#327=CYLINDRICAL_SURFACE('',#380,1.35);
#328=CYLINDRICAL_SURFACE('',#398,8.5);
#329=CYLINDRICAL_SURFACE('',#401,5.);
#330=ADVANCED_FACE('',(#41),#324,.F.);
#331=ADVANCED_FACE('',(#42),#325,.F.);
#332=ADVANCED_FACE('',(#43),#326,.F.);
#333=ADVANCED_FACE('',(#44),#327,.F.);
#334=ADVANCED_FACE('',(#45),#30,.T.);
#335=ADVANCED_FACE('',(#46,#19,#20,#21,#22,#23),#31,.F.);
#336=ADVANCED_FACE('',(#47),#32,.T.);
#337=ADVANCED_FACE('',(#48),#33,.T.);
#338=ADVANCED_FACE('',(#49),#34,.T.);
#339=ADVANCED_FACE('',(#50),#35,.T.);
#340=ADVANCED_FACE('',(#51),#36,.T.);
#341=ADVANCED_FACE('',(#52),#37,.T.);
#342=ADVANCED_FACE('',(#53),#38,.T.);
#343=ADVANCED_FACE('',(#54,#24,#25,#26,#27,#28),#39,.T.);
#344=ADVANCED_FACE('',(#55),#18,.T.);
#345=ADVANCED_FACE('',(#56),#328,.T.);
#346=ADVANCED_FACE('',(#57,#29),#40,.F.);
#347=ADVANCED_FACE('',(#58),#329,.F.);
#348=CLOSED_SHELL('',(#330,#331,#332,#333,#334,#335,#336,#337,#338,#339,
#340,#341,#342,#343,#344,#345,#346,#347));
#349=DERIVED_UNIT_ELEMENT(#352,1.);
#350=DERIVED_UNIT_ELEMENT(#595,-3.);
#351=DIMENSIONAL_EXPONENTS(0.,1.,0.,0.,0.,0.,0.);
#352=(
CONVERSION_BASED_UNIT('gram',#354)
MASS_UNIT()
NAMED_UNIT(#351)
);
#353=(
MASS_UNIT()
NAMED_UNIT(*)
SI_UNIT(.KILO.,.GRAM.)
);
#354=MASS_MEASURE_WITH_UNIT(MASS_MEASURE(0.001),#353);
#355=DERIVED_UNIT((#349,#350));
#356=MEASURE_REPRESENTATION_ITEM('density measure',
POSITIVE_RATIO_MEASURE(1.),#355);
#357=PROPERTY_DEFINITION_REPRESENTATION(#362,#359);
#358=PROPERTY_DEFINITION_REPRESENTATION(#363,#360);
#359=REPRESENTATION('material name',(#361),#592);
#360=REPRESENTATION('density',(#356),#592);
#361=DESCRIPTIVE_REPRESENTATION_ITEM('Generico','Generico');
#362=PROPERTY_DEFINITION('material property','material name',#602);
#363=PROPERTY_DEFINITION('material property','density of part',#602);
#364=DATE_TIME_ROLE('creation_date');
#365=APPLIED_DATE_AND_TIME_ASSIGNMENT(#366,#364,(#602));
#366=DATE_AND_TIME(#367,#368);
#367=CALENDAR_DATE(2025,13,6);
#368=LOCAL_TIME(0,0,0.,#369);
#369=COORDINATED_UNIVERSAL_TIME_OFFSET(0,0,.BEHIND.);
#370=AXIS2_PLACEMENT_3D('',#497,#402,#403);
#371=AXIS2_PLACEMENT_3D('',#498,#404,#405);
#372=AXIS2_PLACEMENT_3D('',#500,#406,#407);
#373=AXIS2_PLACEMENT_3D('',#503,#409,#410);
#374=AXIS2_PLACEMENT_3D('',#504,#411,#412);
#375=AXIS2_PLACEMENT_3D('',#506,#413,#414);
#376=AXIS2_PLACEMENT_3D('',#509,#416,#417);
#377=AXIS2_PLACEMENT_3D('',#510,#418,#419);
#378=AXIS2_PLACEMENT_3D('',#512,#420,#421);
#379=AXIS2_PLACEMENT_3D('',#515,#423,#424);
#380=AXIS2_PLACEMENT_3D('',#516,#425,#426);
#381=AXIS2_PLACEMENT_3D('',#518,#427,#428);
#382=AXIS2_PLACEMENT_3D('',#521,#430,#431);
#383=AXIS2_PLACEMENT_3D('',#522,#432,#433);
#384=AXIS2_PLACEMENT_3D('',#531,#438,#439);
#385=AXIS2_PLACEMENT_3D('',#546,#447,#448);
#386=AXIS2_PLACEMENT_3D('',#547,#449,#450);
#387=AXIS2_PLACEMENT_3D('',#551,#453,#454);
#388=AXIS2_PLACEMENT_3D('',#555,#457,#458);
#389=AXIS2_PLACEMENT_3D('',#561,#462,#463);
#390=AXIS2_PLACEMENT_3D('',#565,#466,#467);
#391=AXIS2_PLACEMENT_3D('',#569,#470,#471);
#392=AXIS2_PLACEMENT_3D('',#571,#473,#474);
#393=AXIS2_PLACEMENT_3D('',#573,#476,#477);
#394=AXIS2_PLACEMENT_3D('',#575,#478,#479);
#395=AXIS2_PLACEMENT_3D('',#576,#480,#481);
#396=AXIS2_PLACEMENT_3D('',#578,#482,#483);
#397=AXIS2_PLACEMENT_3D('',#581,#485,#486);
#398=AXIS2_PLACEMENT_3D('',#582,#487,#488);
#399=AXIS2_PLACEMENT_3D('',#584,#490,#491);
#400=AXIS2_PLACEMENT_3D('',#586,#492,#493);
#401=AXIS2_PLACEMENT_3D('',#587,#494,#495);
#402=DIRECTION('axis',(0.,0.,1.));
#403=DIRECTION('refdir',(1.,0.,0.));
#404=DIRECTION('center_axis',(0.,0.,1.));
#405=DIRECTION('ref_axis',(1.,0.,0.));
#406=DIRECTION('center_axis',(0.,0.,-1.));
#407=DIRECTION('ref_axis',(1.,0.,0.));
#408=DIRECTION('',(0.,0.,-1.));
#409=DIRECTION('center_axis',(0.,0.,1.));
#410=DIRECTION('ref_axis',(1.,0.,0.));
#411=DIRECTION('center_axis',(0.,0.,1.));
#412=DIRECTION('ref_axis',(1.,0.,0.));
#413=DIRECTION('center_axis',(0.,0.,-1.));
#414=DIRECTION('ref_axis',(1.,0.,0.));
#415=DIRECTION('',(0.,0.,-1.));
#416=DIRECTION('center_axis',(0.,0.,1.));
#417=DIRECTION('ref_axis',(1.,0.,0.));
#418=DIRECTION('center_axis',(0.,0.,1.));
#419=DIRECTION('ref_axis',(1.,0.,0.));
#420=DIRECTION('center_axis',(0.,0.,-1.));
#421=DIRECTION('ref_axis',(1.,0.,0.));
#422=DIRECTION('',(0.,0.,-1.));
#423=DIRECTION('center_axis',(0.,0.,1.));
#424=DIRECTION('ref_axis',(1.,0.,0.));
#425=DIRECTION('center_axis',(0.,0.,1.));
#426=DIRECTION('ref_axis',(1.,0.,0.));
#427=DIRECTION('center_axis',(0.,0.,-1.));
#428=DIRECTION('ref_axis',(1.,0.,0.));
#429=DIRECTION('',(0.,0.,-1.));
#430=DIRECTION('center_axis',(0.,0.,1.));
#431=DIRECTION('ref_axis',(1.,0.,0.));
#432=DIRECTION('center_axis',(0.70710678118655,0.707106781186545,0.));
#433=DIRECTION('ref_axis',(0.,0.,-1.));
#434=DIRECTION('',(0.707106781186545,-0.70710678118655,0.));
#435=DIRECTION('',(0.,0.,-1.));
#436=DIRECTION('',(-0.707106781186545,0.70710678118655,0.));
#437=DIRECTION('',(0.,0.,1.));
#438=DIRECTION('center_axis',(0.,0.,1.));
#439=DIRECTION('ref_axis',(1.,0.,0.));
#440=DIRECTION('',(-2.22044604925031E-16,1.,0.));
#441=DIRECTION('',(0.707106781186548,0.707106781186548,0.));
#442=DIRECTION('',(1.,1.66533453693773E-16,0.));
#443=DIRECTION('',(0.707106781186548,-0.707106781186548,0.));
#444=DIRECTION('',(1.11022302462516E-16,-1.,0.));
#445=DIRECTION('',(-0.707106781186548,-0.707106781186547,0.));
#446=DIRECTION('',(-1.,0.,0.));
#447=DIRECTION('center_axis',(0.,0.,1.));
#448=DIRECTION('ref_axis',(1.,0.,0.));
#449=DIRECTION('center_axis',(1.,2.22044604925031E-16,0.));
#450=DIRECTION('ref_axis',(-2.22044604925031E-16,1.,0.));
#451=DIRECTION('',(-2.22044604925031E-16,1.,0.));
#452=DIRECTION('',(0.,0.,1.));
#453=DIRECTION('center_axis',(0.707106781186548,-0.707106781186548,0.));
#454=DIRECTION('ref_axis',(0.,0.,-1.));
#455=DIRECTION('',(-0.707106781186548,-0.707106781186548,0.));
#456=DIRECTION('',(0.,0.,-1.));
#457=DIRECTION('center_axis',(-0.707106781186548,-0.707106781186548,0.));
#458=DIRECTION('ref_axis',(0.,0.,1.));
#459=DIRECTION('',(-0.707106781186548,0.707106781186548,0.));
#460=DIRECTION('',(0.,0.,-1.));
#461=DIRECTION('',(0.,0.,1.));
#462=DIRECTION('center_axis',(-1.,-1.11022302462516E-16,0.));
#463=DIRECTION('ref_axis',(1.11022302462516E-16,-1.,0.));
#464=DIRECTION('',(1.11022302462516E-16,-1.,0.));
#465=DIRECTION('',(0.,0.,1.));
#466=DIRECTION('center_axis',(-0.707106781186547,0.707106781186548,0.));
#467=DIRECTION('ref_axis',(0.,0.,1.));
#468=DIRECTION('',(0.707106781186548,0.707106781186547,0.));
#469=DIRECTION('',(0.,0.,-1.));
#470=DIRECTION('center_axis',(0.,1.,0.));
#471=DIRECTION('ref_axis',(-1.,0.,0.));
#472=DIRECTION('',(-1.,0.,0.));
#473=DIRECTION('center_axis',(1.66533453693773E-16,-1.,0.));
#474=DIRECTION('ref_axis',(1.,1.66533453693773E-16,0.));
#475=DIRECTION('',(1.,1.66533453693773E-16,0.));
#476=DIRECTION('center_axis',(0.,0.,1.));
#477=DIRECTION('ref_axis',(1.,0.,0.));
#478=DIRECTION('center_axis',(0.,0.,-1.));
#479=DIRECTION('ref_axis',(-1.,0.,0.));
#480=DIRECTION('center_axis',(0.,-6.12323399573677E-17,1.));
#481=DIRECTION('ref_axis',(1.,3.68233415725201E-33,-6.01370805005293E-17));
#482=DIRECTION('center_axis',(1.38777878078145E-16,-6.1232339957368E-17,
1.));
#483=DIRECTION('ref_axis',(1.,8.49769420904311E-33,-1.38777878078145E-16));
#484=DIRECTION('',(-0.707106781186548,4.32978028117746E-17,0.707106781186547));
#485=DIRECTION('center_axis',(-1.38777878078145E-16,6.1232339957368E-17,
-1.));
#486=DIRECTION('ref_axis',(1.,0.,0.));
#487=DIRECTION('center_axis',(0.,0.,-1.));
#488=DIRECTION('ref_axis',(1.,0.,0.));
#489=DIRECTION('',(0.,0.,1.));
#490=DIRECTION('center_axis',(1.38777878078145E-16,-6.1232339957368E-17,
1.));
#491=DIRECTION('ref_axis',(1.,0.,-1.38777878078145E-16));
#492=DIRECTION('center_axis',(1.38777878078145E-16,-6.1232339957368E-17,
1.));
#493=DIRECTION('ref_axis',(-1.,0.,0.));
#494=DIRECTION('center_axis',(0.,0.,-1.));
#495=DIRECTION('ref_axis',(-1.,0.,0.));
#496=DIRECTION('',(0.,0.,1.));
#497=CARTESIAN_POINT('',(0.,0.,0.));
#498=CARTESIAN_POINT('Origin',(16.,-14.,-54.6281181368956));
#499=CARTESIAN_POINT('',(14.65,-14.,3.));
#500=CARTESIAN_POINT('Origin',(16.,-14.,3.));
#501=CARTESIAN_POINT('',(14.65,-14.,0.));
#502=CARTESIAN_POINT('',(14.65,-14.,-54.6281181368956));
#503=CARTESIAN_POINT('Origin',(16.,-14.,0.));
#504=CARTESIAN_POINT('Origin',(44.,-14.,-54.6281181368956));
#505=CARTESIAN_POINT('',(42.65,-14.,3.));
#506=CARTESIAN_POINT('Origin',(44.,-14.,3.));
#507=CARTESIAN_POINT('',(42.65,-14.,0.));
#508=CARTESIAN_POINT('',(42.65,-14.,-54.6281181368956));
#509=CARTESIAN_POINT('Origin',(44.,-14.,0.));
#510=CARTESIAN_POINT('Origin',(44.,14.,-54.6281181368956));
#511=CARTESIAN_POINT('',(42.65,14.,3.));
#512=CARTESIAN_POINT('Origin',(44.,14.,3.));
#513=CARTESIAN_POINT('',(42.65,14.,0.));
#514=CARTESIAN_POINT('',(42.65,14.,-54.6281181368956));
#515=CARTESIAN_POINT('Origin',(44.,14.,0.));
#516=CARTESIAN_POINT('Origin',(16.,14.,-54.6281181368956));
#517=CARTESIAN_POINT('',(14.65,14.,3.));
#518=CARTESIAN_POINT('Origin',(16.,14.,3.));
#519=CARTESIAN_POINT('',(14.65,14.,0.));
#520=CARTESIAN_POINT('',(14.65,14.,-54.6281181368956));
#521=CARTESIAN_POINT('Origin',(16.,14.,0.));
#522=CARTESIAN_POINT('Origin',(48.5,18.5,0.));
#523=CARTESIAN_POINT('',(47.0000000000001,20.,3.));
#524=CARTESIAN_POINT('',(50.,17.,3.));
#525=CARTESIAN_POINT('',(48.5000000000001,18.5,3.));
#526=CARTESIAN_POINT('',(50.,17.,0.));
#527=CARTESIAN_POINT('',(50.,17.,0.));
#528=CARTESIAN_POINT('',(47.0000000000001,20.,0.));
#529=CARTESIAN_POINT('',(48.5000000000001,18.5,0.));
#530=CARTESIAN_POINT('',(47.0000000000001,20.,0.));
#531=CARTESIAN_POINT('Origin',(30.0000000000001,-4.44089209850063E-15,0.));
#532=CARTESIAN_POINT('',(50.0000000000001,-17.,0.));
#533=CARTESIAN_POINT('',(50.0000000000001,-20.,0.));
#534=CARTESIAN_POINT('',(47.0000000000001,-20.,0.));
#535=CARTESIAN_POINT('',(48.5,-18.5,0.));
#536=CARTESIAN_POINT('',(13.0000000000001,-20.,0.));
#537=CARTESIAN_POINT('',(10.0000000000001,-20.,0.));
#538=CARTESIAN_POINT('',(10.0000000000001,-17.,0.));
#539=CARTESIAN_POINT('',(11.5000000000001,-18.5,0.));
#540=CARTESIAN_POINT('',(10.0000000000001,17.,0.));
#541=CARTESIAN_POINT('',(10.0000000000001,20.,0.));
#542=CARTESIAN_POINT('',(13.0000000000001,20.,0.));
#543=CARTESIAN_POINT('',(11.5000000000001,18.5,0.));
#544=CARTESIAN_POINT('',(50.0000000000001,20.,0.));
#545=CARTESIAN_POINT('',(21.5,-4.09647611194462E-15,0.));
#546=CARTESIAN_POINT('Origin',(30.,-5.13742589121987E-15,0.));
#547=CARTESIAN_POINT('Origin',(50.0000000000001,-20.,0.));
#548=CARTESIAN_POINT('',(50.0000000000001,-17.,3.));
#549=CARTESIAN_POINT('',(50.0000000000001,-20.,3.));
#550=CARTESIAN_POINT('',(50.0000000000001,-17.,0.));
#551=CARTESIAN_POINT('Origin',(48.5,-18.5,0.));
#552=CARTESIAN_POINT('',(47.0000000000001,-20.,3.));
#553=CARTESIAN_POINT('',(48.5,-18.5,3.));
#554=CARTESIAN_POINT('',(47.0000000000001,-20.,0.));
#555=CARTESIAN_POINT('Origin',(11.5000000000001,-18.5,0.));
#556=CARTESIAN_POINT('',(13.0000000000001,-20.,3.));
#557=CARTESIAN_POINT('',(10.0000000000001,-17.,3.));
#558=CARTESIAN_POINT('',(11.5000000000001,-18.5,3.));
#559=CARTESIAN_POINT('',(10.0000000000001,-17.,0.));
#560=CARTESIAN_POINT('',(13.0000000000001,-20.,0.));
#561=CARTESIAN_POINT('Origin',(10.0000000000001,20.,0.));
#562=CARTESIAN_POINT('',(10.0000000000001,17.,3.));
#563=CARTESIAN_POINT('',(10.0000000000001,20.,3.));
#564=CARTESIAN_POINT('',(10.0000000000001,17.,0.));
#565=CARTESIAN_POINT('Origin',(11.5000000000001,18.5,0.));
#566=CARTESIAN_POINT('',(13.0000000000001,20.,3.));
#567=CARTESIAN_POINT('',(11.5000000000001,18.5,3.));
#568=CARTESIAN_POINT('',(13.0000000000001,20.,0.));
#569=CARTESIAN_POINT('Origin',(50.0000000000001,20.,0.));
#570=CARTESIAN_POINT('',(50.0000000000001,20.,3.));
#571=CARTESIAN_POINT('Origin',(10.0000000000001,-20.,0.));
#572=CARTESIAN_POINT('',(10.0000000000001,-20.,3.));
#573=CARTESIAN_POINT('Origin',(30.0000000000001,-4.44089209850063E-15,3.));
#574=CARTESIAN_POINT('',(35.,-4.44089209850063E-15,3.));
#575=CARTESIAN_POINT('Origin',(30.,-5.13742589121987E-15,3.));
#576=CARTESIAN_POINT('Origin',(30.,-5.0761935512625E-15,-6.99999999999997));
#577=CARTESIAN_POINT('',(23.5,-5.81098163075091E-15,-7.99999999999997));
#578=CARTESIAN_POINT('Origin',(30.,-5.01496121130513E-15,-7.99999999999997));
#579=CARTESIAN_POINT('',(21.5,-4.09647611194462E-15,-5.99999999999997));
#580=CARTESIAN_POINT('',(22.5,-4.15770845190199E-15,-6.99999999999997));
#581=CARTESIAN_POINT('Origin',(30.,-5.13742589121987E-15,-5.99999999999997));
#582=CARTESIAN_POINT('Origin',(30.,-5.13742589121987E-15,0.));
#583=CARTESIAN_POINT('',(21.5,-4.09647611194462E-15,0.));
#584=CARTESIAN_POINT('Origin',(30.,-5.55111512312578E-15,-7.99999999999997));
#585=CARTESIAN_POINT('',(35.0000000000001,-4.52510249164619E-15,-7.99999999999997));
#586=CARTESIAN_POINT('Origin',(30.,-5.13742589121987E-15,-7.99999999999997));
#587=CARTESIAN_POINT('Origin',(30.,-5.13742589121987E-15,0.));
#588=CARTESIAN_POINT('',(35.0000000000001,-5.74974929079355E-15,0.));
#589=CARTESIAN_POINT('',(0.,0.,0.));
#590=UNCERTAINTY_MEASURE_WITH_UNIT(LENGTH_MEASURE(0.01),#594,
'DISTANCE_ACCURACY_VALUE',
'Maximum model space distance between geometric entities at asserted c
onnectivities');
#591=UNCERTAINTY_MEASURE_WITH_UNIT(LENGTH_MEASURE(0.01),#594,
'DISTANCE_ACCURACY_VALUE',
'Maximum model space distance between geometric entities at asserted c
onnectivities');
#592=(
GEOMETRIC_REPRESENTATION_CONTEXT(3)
GLOBAL_UNCERTAINTY_ASSIGNED_CONTEXT((#590))
GLOBAL_UNIT_ASSIGNED_CONTEXT((#594,#596,#597))
REPRESENTATION_CONTEXT('','3D')
);
#593=(
GEOMETRIC_REPRESENTATION_CONTEXT(3)
GLOBAL_UNCERTAINTY_ASSIGNED_CONTEXT((#591))
GLOBAL_UNIT_ASSIGNED_CONTEXT((#594,#596,#597))
REPRESENTATION_CONTEXT('','3D')
);
#594=(
LENGTH_UNIT()
NAMED_UNIT(*)
SI_UNIT(.MILLI.,.METRE.)
);
#595=(
LENGTH_UNIT()
NAMED_UNIT(*)
SI_UNIT(.CENTI.,.METRE.)
);
#596=(
NAMED_UNIT(*)
PLANE_ANGLE_UNIT()
SI_UNIT($,.RADIAN.)
);
#597=(
NAMED_UNIT(*)
SI_UNIT($,.STERADIAN.)
SOLID_ANGLE_UNIT()
);
#598=SHAPE_DEFINITION_REPRESENTATION(#599,#600);
#599=PRODUCT_DEFINITION_SHAPE('',$,#602);
#600=SHAPE_REPRESENTATION('',(#370),#592);
#601=PRODUCT_DEFINITION_CONTEXT('part definition',#606,'design');
#602=PRODUCT_DEFINITION('tappo_01','tappo_01',#603,#601);
#603=PRODUCT_DEFINITION_FORMATION('',$,#608);
#604=PRODUCT_RELATED_PRODUCT_CATEGORY('tappo_01','tappo_01',(#608));
#605=APPLICATION_PROTOCOL_DEFINITION('international standard',
'automotive_design',2009,#606);
#606=APPLICATION_CONTEXT(
'Core Data for Automotive Mechanical Design Process');
#607=PRODUCT_CONTEXT('part definition',#606,'mechanical');
#608=PRODUCT('tappo_01','tappo_01',$,(#607));
#609=PRESENTATION_STYLE_ASSIGNMENT((#611));
#610=PRESENTATION_STYLE_ASSIGNMENT((#612));
#611=SURFACE_STYLE_USAGE(.BOTH.,#615);
#612=SURFACE_STYLE_USAGE(.BOTH.,#616);
#613=SURFACE_STYLE_RENDERING_WITH_PROPERTIES($,#623,(#614));
#614=SURFACE_STYLE_TRANSPARENT(0.);
#615=SURFACE_SIDE_STYLE('',(#617,#613));
#616=SURFACE_SIDE_STYLE('',(#618));
#617=SURFACE_STYLE_FILL_AREA(#619);
#618=SURFACE_STYLE_FILL_AREA(#620);
#619=FILL_AREA_STYLE('',(#621));
#620=FILL_AREA_STYLE('',(#622));
#621=FILL_AREA_STYLE_COLOUR('',#623);
#622=FILL_AREA_STYLE_COLOUR('',#624);
#623=COLOUR_RGB('',0.749019607843137,0.749019607843137,0.749019607843137);
#624=COLOUR_RGB('',1.,1.,0.);
ENDSEC;
END-ISO-10303-21;
